Brad Paisley - Little Moments (var.1) Guitar tab download free or play online

Guitar tab for Little Moments (var.1) by Brad Paisley free download and read or play online: file .txt, 1.55 kb has 127 views and 0 downloads.

Download guitar tab "Little Moments (var.1)" (Brad Paisley)

Brad Paisley Band name
Little Moments Song name
Guitar tabs Tab type
1.55 kb File size
.TXT File type
127 views
0 downloads
 
Are you robot?

Little Moments (var.1) guitar tab read and play online

                    /slide       br bend&release  p pulloff
h hammer on  bh bend&hold 
b bend       r release bend           


                              
e-------------------------------------------------0----0------------------|
b---------------------------------------------3br--3/5---3--3-------------|
g------------------------------------2-4br-2---------------2--2-----------|
d-----2h4-2----------------------2h4-----------------------------4--------|
a-----------444br-2----------2h4------------------------------------------|
e--00---------------0--0h2h4----------------------------------------------|

e-----------------5-------------10----------------------------------------|
b--5br---5------5--5/12 12bh1212--12r-----12-------------------141517-----|
g----------4/6------------------------11bh---11r11-11/14-14/16------------|
d------7------------------------------------------------------------------|
a-------------------------------------------------------------------------|
e-------------------------------------------------------------------------|

e-14-17br-14--------------------------------------------------------------|
b------------17br---14-15p14---15--14----9--------------------------------|
g-----------------14--------16-14b-14h16-9h11-----------------------------|
d-------------------------------------------------------------------------|
a-------------------------------------------------------------------------|
e-------------------------------------------------------------------------    
i use a b-bender on all bends on the b string                    

Comments for guitar tab — Little Moments (var.1) (Brad Paisley)

Other Little Moments (var.1) by Brad Paisley tabs:

Last viewed Brad Paisley tabs: